คอร์ดกีตาร์ คอร์ดเพลง เนื้อเพลง ฟังเพลง
24 October 2014
 
 
 
เพลง คนหลงทาง : บิ๊กแอส (Big Ass) : จำนวนผเข้าชม :  10639 คะแนนรวม : 80 แกะคอร์ดโดย : webmaster
แย่   ดี 

 

intro
Eb-|------------------------|---------------------------------------
Bb-|------------------------|---------------------------------------
Gb-|--5---7---9---12----|----4---5---7---9-------------------
Db-|------------------------|---------------------------------------
Ab-|--3---5---7---10----|----2---3---5---7-------------------
Eb-|------------------------|---------------------------------------


Eb-|------------------------|---------------------------------------
Bb-|------------------------|---------------------------------------
Gb-|--5---7---9---12----|----10---12---13---12------------
Db-|------------------------|---------------------------------------
Ab-|--3---5---7---10----|----8----10----11---10-------------
Eb-|------------------------|---------------------------------------


Eb-|------------------------|---------------------------------------
Bb-|------------------------|---------------------------------------
Gb-|--5---7---9---12----|----4---5---7---9-------------------
Db-|------------------------|---------------------------------------
Ab-|--3---5---7---10----|----2---3---5---7-------------------
Eb-|------------------------|---------------------------------------


Eb-|------------------------|---------------------------------------
Bb-|------------------------|---------------------------------------
Gb-|--5---7---9---12----|----10---9---7---4-----5-------
Db-|------------------------|---------------------------------------
Ab-|--3---5---7---10----|----8----7----5---2----3---------
Eb-|------------------------|---------------------------------------

  C               Csus2
ขอบคุณอีกครั้ง ขอบคุณอีกที
     F                         Fm
ขอบคุณในความหวังดี ที่มีให้คนที่มืดมัว
    C               Csus2
แต่มันคงไม่คุ้ม เข้าใจใช่ไหม
    F                         Fm
ออกจากชีวิตฉันไป ไม่อยากให้เธอถลำตัว

   Dm               G
* คนอย่างฉันไม่ดีอย่างใครใคร 
   C              Em        Am
หลงทางมาไกลจนน่ากลัว
                 F                     G
ทางเดินวันนี้ไม่มีสิทธิ์กลับตัว


  C                       F
** อย่าฝากชีวิตดีดีไว้ที่ฉัน 
   G                                C
อย่าเอาความฝันของเธอมาเสี่ยงรู้ไหม
Em                               Dm
เก็บเอาชีวิตของเธอเดินออกไปให้ไกล
G                                 C
ไม่อยากทำร้ายคนดีอย่างเธอ

Eb-|------------------------|---------------------------------------
Bb-|------------------------|---------------------------------------
Gb-|--5---7---9---12----|----4---5---7---9-------------------
Db-|------------------------|---------------------------------------
Ab-|--3---5---7---10----|----2---3---5---7-------------------
Eb-|------------------------|---------------------------------------


Eb-|------------------------|---------------------------------------
Bb-|------------------------|---------------------------------------
Gb-|--5---7---9---12----|----10---9---7---4-----5-------
Db-|------------------------|---------------------------------------
Ab-|--3---5---7---10----|----8----7----5---2----3---------
Eb-|------------------------|---------------------------------------





  C               Csus2
มีแต่ความรัก มีแต่ความฝัน
F                              Fm
แต่มันคงไม่สำคัญ เมื่อมันไม่ใช่ชีวิตจริง

(ซ้ำ *,**)
F          Fm                                        C
ไม่ใช่ไม่รักกก  ไม่อยากทำร้ายคนดีอย่างเธอ 
ดูคอร์ดกีตาร์
ตั้งสายกีตาร์
พิมพ์คอร์ดกีตาร์
 

 

 
www.guitarcord.net @COPYRIGHT - 2008 : Hosting By BizQSoft.com -โฮสติ้งเพื่อธุรกิจ คุณภาพสูง ไม่มีล่ม Uptime 100%